201208182004[翻唱+吉他譜]韋禮安-心醉心碎

 

 

 

 

 

間奏懶的抓了XD
下次再補上~

心醉心碎

作詞:韋禮安
作曲:韋禮安
|002000|000400|002000|030400|<--簡單彈
|002020|000400|002200|530400|<---用刷的
|002020|000420 +4X 3x 32 2x |002000 +3x~4~X 4X 34|779997  +(12)|<---好聽些

[Intro]
|------------------------------------------------------|
|3~1-1~3-1-0-1-0-------3~1-1~3-3~8-8~7-7-55-7---0------|
|----------------2---2----------------------------2-2--|
|------------------0----------------------------------0|
|------------------------------------------------------|
|------------------------------------------------------|

|002020|000420 +4X 3x 32 2x |002000 +3x~4~X 4X 34|779997  +(12)|
不對嗎 最害怕實話
面對她 就成了啞巴
|002020|030400|002000|030400|
而不說話 又只會一步步走回最初我們停下
的地方 錯過了解答
|G(3)|Bm7|Am7|000023|
心醉心醉 怎麼變心碎心碎 怎麼有人流眼淚
怎麼會如此狼狽
|G(3)|Bm7|Am7|000023|
我們心醉心醉 難道有什麼不對 還是不管成全誰
下場都需要安慰
|G(3)|Bm7|Am7|000023|

|002000|000400|002000|030400|
遺憾嗎 走偏的童話
送給他 你寫的手札
|002020|030400|002000|030400|
重逢不尷尬 只是邂逅了掙扎 就學會習慣他
麻木吧 學會不牽掛
|G(3)|Bm7|Am7|000023|
心醉心醉 怎麼變心碎心碎 怎麼有人流眼淚
怎麼會如此狼狽
|G(3)|Bm7|Am7|000023|
我們心醉心醉 難道有什麼不對 還是不管成全誰
下場都需要安慰
|G(3)|Bm7|Am7|000023|

[間奏]

|G(3)|Bm7|G(3)|Bm7|
|002200|Bm7|Am7|000023|
|7~10-7~10------------|  |-----------7----8-7-77 7~10~7-----------|
|----------10~8-10~8-8|  |7787-10-7--- 10--------------8~10~8-----|
|---------------------|X2|-----------------------------------7~9~7|
|---------------------|  |----------------------------------------|
|---------------------|  |----------------------------------------|
|---------------------|  |----------------------------------------|


|7~10-7~10------------|171717-1515-14-15-14-15-15~17-------------------------10~12-10~12-10|
|----------10~8-10~8-8|------------------------------15-------15-------12~13---------------|
|---------------------|---------------------------------14~16----14-12---------------------|
|---------------------|--------------------------------------------------------------------|
|---------------------|--------------------------------------------------------------------|
|---------------------|--------------------------------------------------------------------|



|G(3)|Bm7|Am7|G|
心醉心醉 怎麼變心碎心碎 怎麼有人流眼淚
怎麼會如此狼狽
|G(3)|Bm7|Am7|G|000023|
我們心醉心醉 難道有什麼不對 還是不管成全誰
下場都需要安慰
不對嗎

平均分數:0 顆星    投票人數:0
我要評分:
回應
    沒有新回應!

@喜歡畫畫,看漫畫和卡通。

@打了14年籃球(ing...)~

@超級無敵愛唱歌~

@&吉他跳舞

 

關鍵字